Stop Censorship
 
 

 
 1-9 a b c d e f g h i j k l m n o p q r s t u v w x y z
   System Of A Down - Virginity Tab    

-=Virginity=-
=============
This song`s tuning is drop D; then all strings down one whole step
(C-G-C-F-A-D)


Artist: System of a down
Release: Unreleased
Transcribed by: Benjamin Marschner
Email: Leerebirne@web.de
HP: www.systemofadowntabs.de.vu


A
1:-5-556-44444-|-5-556-44444-|-5-556-44444-|-5-556--444-|
2:-5-556-44444-|-5-556-44444-|-5-556-44444-|-5-556--444-|
3:-------------|-------------|-------------|------------|
4:-------------|-------------|-------------|------------|
5:-------------|-------------|-------------|------------|
6:-------------|-------------|-------------|------------|


B
1:-------------|
2:-------------|
3:-------------|
4:-7000-8000-6-|
5:-7000-8000-6-|
6:-7000-8000-6-|


C
1:----------|
2:----------|
3:----------|
4:-8--555-7-|
5:-6--333-5-|
6:----------|


D
1:---------|
2:---------|
3:---------|
4:-8--5----|
5:-6--3--0-|
6:-------0-|


E
1:-5-556-444-|-5-556-444-|-5-556-444-|-5-556--444-|
2:-5-556-444-|-5-556-444-|-5-556-444-|-5-556--444-|
3:-----------|-----------|-----------|------------|
4:-----------|-----------|-----------|------------|
5:-----------|-----------|-----------|------------|
6:-----------|-----------|-----------|------------|


F
pn..............
1:---------------|
2:---------------|
3:---------------|
1:-1-1-3-1-0-0-0-|
2:-1-1-3-1-0-0-0-|
3:-1-1-3-1-0-0-0-|


G
1:-------------|
2:-------------|
3:-------------|
4:-------------|
5:-------------|
6:-7000-8000-6-|


ORDER:
=====

A
B 8x
C 4x
D 4x
E
B 4x
C 4x
D 4x
F 8x
C 4x
D 4x
G 4x