Stop Censorship
 
 

 
 1-9 a b c d e f g h i j k l m n o p q r s t u v w x y z
   System Of A Down - War Tab    

Okay look this is for first ever song I`ve transcribed so give
me a break and I looked at the other tabs, a lot of which I tried
to delete because of mistakes, and it`s completely different cause
this tab was made for EADGBE or something like it all the knobs on
my guitar are straight but I did the fifth fret tuning method and
it`s close even though System uses CGCFAD. I haven`t put my detuning
strings on yet. Anyway soad rules and this tab is easy as hell and i
got the lyrics for it next I`m gonna tab steal this album before every
one else does...

/=slide down
=slide up
h=hammer on
x=Left hand mute
t(Above satff)=tap
PM(Under staff)=Palm Mute
>(above staff)=Sustain

War
T..........
|---------------------------------------------------------------|
|------------xx-----------xx-----------xx-----------------------|
|--8p7h8p7-xx---8p7h8p7-xx---8p7h8p7-xx---8p7h8p7-11-12-11-12---|
|---------------------------------------------------------------|
|---------------------------------------------------------------|
|---------------------------------------------------------------|

*The other part

|---------------------------------x------x-x----------------|
|-------x-----x------x------x---x------x--------------------|
|-----x-----x------x------x--xx-----xx----------------------|
|-x-x----x-x----xx----x-x-----------------------------------|
|-----------------------------------------------------------|
|-----------------------------------------------------------|

*Chorus

|-----------------------------------------------------------|
|-----------------------------------------------------------|
|-----------------------------------------------------------|
|-----------------------------------------------------------|
|--0-0-3-0-0-0-0-5-0-0-0-0-7-0-0-0-0-9-0-0------------------|
|--0-0-3-0-0-0-0-5-0-0-0-0-7-0-0-0-0-9-0-0------------------|


*Verse

|--------------------------|-------------------------------|
|--------------------------|-------------------------------|
|--------------------------|-------------------------------|
|--------------------------|-------------------------------|
|-xxxxx-xxxxx-xxxxx--------|--3333-xxxx-3333-xxxx----------|
|-xxxxx-xxxxx-xxxxx--------|--3333-xxxx-3333-xxxx----------|

*Bridge

|-------------------------|----------------------------------|
|-------------------------|----2-3-2---2-3-2---2-3-2---------|
|----2-3-2---2-3-2---2-3-2|--0-------0-------0---------------|
|--0-------0-------0------|----------------------------------|
|-------------------------|----------------------------------|
|-------------------------|----------------------------------|
PM......................
*Differnt chorus part
|------------------------------|
|--------------10-----8--------|
|--------------9------6--------|
|--------------7------5--------|
|-xxxxxxxxxxxxx--xxxx----------|
|-xxxxxxxxxxxxx--xxxx----------|

Dark is the light,
The man you fight,
With all your prayers, incantations,
Running away, a trivial day,
Of judgment and deliverance,
To whom was sold, this bounty soul,
A gentile or a priest ?
Who victored over, the Seljuks,
When the holy land was taken

We will fight the heathens, We will fight the heathens
We will fight the heathens, We will fight the heathens

Was it the riches, of the land,
Powers of bright darkness,
That lead the noble, to the East,
To fight the heathens

We will fight the heathens, We will fight the heathens
We will fight the heathens, We will fight the heathens
We will fight the heathens, We will fight the heathens
We will fight the heathens, We will fight the heathens

We must call upon our bright darkness,
Beliefs, they`re the bullets of the wicked,
One was written on the sword,
For you must enter a room to destroy it,
International security,
Call of the righteous man,
Needs a reason to kill man,
History teaches us so,
The reason he must attain,
Must be approved by his God,
His child, partisan brother of war,

Of war, we don`t speak anymore,
Of war, we don`t speak anymore,
Of war, we don`t speak anymore,
Of war, we don`t speak anymore,

We will fight the heathens, We will fight the heathens
We will fight the heathens, We will fight the heathens
We will fight the heathens, We will fight the heathens
We will fight the heathens, We will fight the heathens


Ok theres moderations in the bridge where i was sloppy but other than that id say its good