Stop Censorship
 
 

 
 1-9 a b c d e f g h i j k l m n o p q r s t u v w x y z
   System Of A Down - X Tab    


this tab is from the book and is 100% correct (dont know why someone rated it two star)


X (Multiply)

C-G-C-F-A-D

“ = Bend note

Intro*
D---------------------------------------------------
A---------------------------------------------------
F-------------10-12-13-12---10-12-13-12-10-12-13-12
C---------------------------------------------
G----------------------------------------------------
C----------------------------------------------------

*listen to the song to find out how many times this is played

Riff A
D----------------------------------------------------------------------------
A----------------------------------------------------------------------------
F-----------------------------------------------9”---------9”--9”------------
C-----------------------------------------------10”------10”--10”------------
G------------0------0------0------0-0----------------------------------------
C------------0------0------0------0-0----------------------------------------

D------------------------------------------------------------------------
A------------------------------------------------------------------------
F------------------------------------------------------------------------
C------------------------------------------------------------------------
G--------0-0-----0------0-------0--0-------10------13--13-----------
C--------0-0-----0------0-------0--0-------10------13--13-----------

Verse


D------------------------------------------------------------------
A------------------------------------------------------------------
F-----------------------------------------------------------------
C-----------------------------------------------------------------
G-------10-----12---13--12--10--12--13--12--10--------------------
C-------10-----12---13--12--10- 12---13--12--10-------------------

Play as many times as needed


Interlude –play 3 times-
(We don’t need to)
D-------------------------------------------------------10”------10”-------------10”
A------------------------------------------------------------------------------------
F-----------------------------------------------------------------------------------
C---------------------------------------------------------------------------------
G---10-----12---13--12--0--------0---0-----0-------0--0-------0---0-00---0
C---10-----12---13 12--0--------0---0-----0-------0--0-------0---0-00---0----

Intro
Riff A
Verse
Riff A
Verse
Riff A
Interlude
Verse