Stop Censorship
 
 

 
 1-9 a b c d e f g h i j k l m n o p q r s t u v w x y z
   Systematic - Deep Colours Bleed Tab    

Deep Colours Bleed - Systematic
Version 1.0

This tab is meant for educational purposes only and is not to be missused in any way.

Any corrections send to the above address.

Riff 1
16x 12x
C---||---------||--------------------||---------||----
G---||---------||--------------------||---------||----
Eb--||*-------*||--------------------||*-------*||----
Bb--||*-------*||--------------------||*-------*||----
F---||---7p0---||--6p0--6p0--6p0-----||---9p0---||----
C---||---------||--------------------||---------||----

This repeats two times before going into the verse on the second time
the 2nd guitar part doubles the fretted notes on the octave, the verse
is the same riff, except palm muted HEAVILY.

Riff 2

C---||----------------------||
G---||----------------------||
Eb--||----------------------||
Bb--||--2-2--2-2--2-2--2-2--||
F---||--2-2--2-2--2-2--2-2--||
C---||--0-0--0-0--0-0--0-0--||

Riff 3

C---||-------||-------------------||
G---||-------||-------------------||
Eb--||-------||--4/5-5--4/5-5--7--||
Bb--||-------||--4/5-5--4/5-5--7--||
F---||-------||--2/3-3--2/3-3--5--||
C---||--12--||-------------------||

Riff 4
C---||-------------------------------||
G---||-------------------------------||
Eb--||-------------7----------------||
Bb--||--2-2-2------5--2-2-2------7-||
F---||--2-2-2----------2-2-2------5-||
C---||--0-0-0-etc------0-0-0-etc-----||
Not sure how many E chords there are, if you use your
ears you can figure it out.

Riff 5
C---||-----------------||
G---||-----------------||
Eb--||-----------------||
Bb--||--2-2-2---2-2-2--||
F---||--2-2-2---2-2-2--||
C---||--0-0-0---0-0-0--||

Song Structure

Riff 1 -- x4
Riff 2 -- x8
Riff 3 -- x2
Riff 4 -- x1
Riff 3 -- x2
Riff 4 -- x1
Riff 1 -- x4
Riff 2 -- x8
Riff 3 -- x2
Riff 4 -- x1
Riff 3 -- x2
Riff 4 -- x1
Solo
Riff 3 -- x2
Riff 4 -- x1
Riff 3 -- x2
Riff 4 -- x1
Riff 3 -- x2
Riff 4 -- x1
Riff 3 -- x2
Riff 4 -- x1
Riff 1 -- x2
Riff 5 -- x1

Solo Structure (variations of these riffs)

Riff 3 -- x2
Riff 4 -- x1
Riff 3 -- x2
Riff 4 -- x1


========================================================================
== TABLATURE EXPLANATION ==
========================================================================

----------
----5h8--- Hammeron
----------
----5p8--- Pulloff
----------
----(8)--- Ghost
---------- Note
---------- ----t---
----6--- Tap
--------
--------
----------
----5/8--- Slide Up
----------
----58--- Slide Down
----------
-----x---- Dead
---------- Note
---------- -----p--
-----7-- Pop
--s-----
--5----- Slap
----------
----5~~~-- Vibrato
----------
----------
||------|| Repeat
||*----*||
||*----*||
||------||
--------
---5^--- Bend
--------
--------
----------
-4:------- Time
-4:------- Signature
----------
----------
----------
----------
----------
--------
--------
--------
--------