Stop Censorship
 
 

 
 1-9 a b c d e f g h i j k l m n o p q r s t u v w x y z
   Systematic - Thick Skin Tab    

Band: systematic
Song: Think Skin
Album: Somewhere In Between
Tabbed By: Brad
Coolbeg334433@yahoo.com

Hey guys, take everything down a half a step. I sorta messed up on the tunning. Thanx for that man!


repeat 3 times
Intro-drums come in at the end( pause for like 1/2 a second at the end the second time)
C----------------------------------------------------------------------------------|

G----------------------------------------------------------------------------------|

Eb---------------------------------------------------------------------------------|

Bb---------------------------------------------------------------------------------|

F----------------------------------------------------------------------------------|

C--0--0--8--0--0--8--0--0--8--0---0--8--0--0--0--8--0---0--8--0--0--8--0---0--8---0|


Verse
repeat about 3 times
(At the end of everytime hold for 6 seconds well the drums are going then go back in.)
C----------------------------------------------------------------------------------|

G----------------------------------------------------------------------------------|

Eb---------------------------------------------------------------------------------|

Bb---------------------------------------------------------------------------------|

F----------------------------------------------------------------------------------|

C--0--0--8--0--0--8--0--0--8--0---0--8--0--0--0--8--0---0--8--0--0--8--0---0--8---0|



Chorus

C----------------------------------------------------------------------|

G----------------------------------------------------------------------|

Eb---------------------------------------------------------------------|

Bb---------14----------12-------2---------5----------7-----------------|

F----------14----------12-------2---------5----------7-----------------|

C----------12----------10-------0---------3----------5-----------------|



When he yells "THICK SKIN!!" in the verse here i think the other guitar player plays this

C-----------------------------------------------------------------|

G-----------------------------------------------------------------|

Eb--------15------------------------------------------------------|

Bb--------13------------------------------------------------------|

F-----------------------------------------------------------------|

C-----------------------------------------------------------------|



Breakdown
repeat 2 times
C---------------------------------------------------------------------------------|

G---------------------------------------------------------------------------------|

Eb--------------------------------------------------------------------------------|

Bb--------------------------------------------------------------------------------|

F---------------------------------------------------------------------------------|

C--5-4-0---5-4-0---5-4-0---5-4-0---5-4-0---4-2-0---4-2-0---4-2-0---3-2-0----3-2-0-|



Bridge v=vibrato(bend string back and forth) /=slide
C----------------------------------------------------------------------------------|

G-----4v---2v---4v---7v---9v----8v----/--4v---2v---4v---7v-----9v------------------|

Eb---------------------------------------------------------------------------------|

Bb---------------------------------------------------------------------------------|

F----------------------------------------------------------------------------------|

C----------------------------------------------------------------------------------|



C----------------------------------------------------------------------------------|

G----------------------------------------------------------------------------------|

Eb---------------------------------------------------------------------------------|

Bb---------------------------------------------------------------------------------|

F----------------------------------------------------------------------------------|

C---0--0--8--0---0--8--0---0--8--0--0--8--0--0--0--8--0--0--8--0---0--8--0---/--13-|



Chorus

C----------------------------------------------------------------------|

G----------------------------------------------------------------------|

Eb---------------------------------------------------------------------|

Bb---------13----------10-------2---------5----------7-----------------|

F----------13----------10-------2---------5----------7-----------------|

C----------11----------12-------0---------3----------5-----------------|



Slide tot he 9th fret and do heavey vibrato
C----------------------------------------------------------------------|

G----------------------------------------------------------------------|

Eb---------------------------------------------------------------------|

Bb---/-9v--------------------------------------------------------------|

F----------------------------------------------------------------------|

C----------------------------------------------------------------------|



C----------------------------------------------------------------------------------|

G----------------------------------------------------------------------------------|

Eb---------------------------------------------------------------------------------|

Bb---------------------------------------------------------------------------------|

F----------------------------------------------------------------------------------|

C---0--0--8--0---0--8--0---0--8--0--0--8--0--0--0--8--0--0--8--0--0--8--0--0--8--0-|



after that do, this
C----------------------------------------------------------------|

G----------------------------------------------------------------|

Eb---------------------------------------------------------------|

Bb---------------------------------------------------------------|

F----------------------------------------------------------------|

C--0--0--8--0----0--8--0----0--8--0----0--8--0------0--8--0------|


There ya go! this is yet another tab i never found and was getting mad. You want something done right, gotta do it yourself ya know. Well i hope you enjoy, any comment or if u need an explaining just email me!