Stop Censorship
 
 

 
 1-9 a b c d e f g h i j k l m n o p q r s t u v w x y z
   Tangent - FEA Tab    

tabbed by:Steve Davis
band:TANGENT
song:**** `em all
tuning:DADGBE
email me:Zero8841434083@aol.com


E----------------------------------------------------------------------
B----------------------------------------------------------------------
G----------------------------------------------------------------------
D----------------------------------------------------------------------
A----------------------------------------------------------------------
D-0~----0-9-0----------------------------------------------------------
[INTRO]

E----------------------------------------------------------------------
B----------------------------------------------------------------------
G----------------------------------------------------------------------
D-0~----0-9-0---9--10~-----0~----0-9-0---9--8~-------------------------
A-0~----0-9-0---9--10~-----0~----0-9-0---9--8~-------------------------
D-0~----0-9-0---9--10~-----0~----0-9-0---9--8~-------------------------


KEY:
~=let ring

ORDER:
intro-x2
chorus-x4
intro-x4
chorus-x4
intro-x4
chorus-x4