Stop Censorship
 
 

 
 1-9 a b c d e f g h i j k l m n o p q r s t u v w x y z
   Tangent - PAEC Tab    

tabbed by:Steve Davis
band:TANGENT
song:P.A.E.C
tuning:DADGBE
email me at:Zero8841434083@aol.com


E----------------------------------------------------------------------
B----------------------------------------------------------------------
G----------------------------------------------------------------------
D-5-5-*--5-5-5-5-*~----------------------------------------------------
A-5-5-*--5-5-5-5-*~----------------------------------------------------
D-3-3-*--3-3-3-3-*~----------------------------------------------------
. . . . . . [intro]

E----------------------------------------------------------------------
B----------------------------------------------------------------------
G----------------------------------------------------------------------
D-5-5-*--5-5-5-5-*~----------------------------------------------------
A-5-5-*--5-5-5-5-*~----------------------------------------------------
D-3-3-*--3-3-3-3-*~----------------------------------------------------
[chorus]

E----------------------------------------------------------------------
B----------------------------------------------------------------------
G-1211-1211--------1211-1211-------------------------------------------
D-1211-1211--------1211-1211-------------------------------------------
A-----------00-00------------00-00-------------------------------------
D-----------00-00------------00-00-------------------------------------
[riff 1]

E----------------------------------------------------------------------
B----------------------------------------------------------------------
G----------------------------------------------------------------------
D-1212--1212--1212--1212-----------------------------------------------
A------------------------1111--1111--00-00-----------------------------
D------------------------------------00-00-----------------------------

KEY:
..=palm mute
*=harmonic
~=let ring

ORDER:
intro-x2
chorus-x4
riff 1-x4
chorus-x4
riff 2-x4
chorus-x4