Stop Censorship
 
 

 
 1-9 a b c d e f g h i j k l m n o p q r s t u v w x y z
   Tangent - Quadratics Tab    

tabbed by:Steve Davis
band:TANGENT
song:quadratics
tuning:DADGBE
email at:Zero8841434083@aol.com

E----------------------------------------------------------------------
B----------------------------------------------------------------------
G----------------------------------------------------------------------
D-00-9--000-9--00-12--000-12-------------------------------------------
A-00-9--000-9--00-12--000-12-------------------------------------------
D-00-9--000-9--00-12--000-12-------------------------------------------
.. ... .. ... [intro]

E----------------------------------------------------------------------
B----------------------------------------------------------------------
G----------------------------------------------------------------------
D-00-9--000-9--00-12--000-12-------------------------------------------
A-00-9--000-9--00-12--000-12-------------------------------------------
D-00-9--000-9--00-12--000-12-------------------------------------------
[chorus]

E----------------------------------------------------------------------
B-1--1-1------------2--2-2---------------------------------------------
G-------------------2--2-2---------------------------------------------
D-2--2-2---2--2-2------------2--2-2------------------------------------
A-3--3-3---2--2-2------------2--2-2------------------------------------
D----------------------------------------------------------------------
. . . . . . . . . [riff 1]

E----------------------------------------------------------------------
B----------------------------------------------------------------------
G----------------------------------------------------------------------
D-000000-9--000000-12--------------------------------------------------
A-000000-9--000000-12--------------------------------------------------
D-000000-9--000000-12--------------------------------------------------
...... ...... [fill]

E----------------------------------------------------------------------
B----------------------------------------------------------------------
G----------------------------------------------------------------------
D-000000-9--000000-12--------------------------------------------------
A-000000-9--000000-12--------------------------------------------------
D-000000-9--000000-12--------------------------------------------------
[outro]

KEY:
..=palm mute

ORDER:
intro-x2
chorus-x4
riff 1-x4
chorus-x4
riff 1-x4
fill-x2
outro-x4