Stop Censorship
 
 

 
 1-9 a b c d e f g h i j k l m n o p q r s t u v w x y z
   Tangent - Trippen Tab    

tabbed by:Steve Davis
band:TANGENT
song:trippin
tuning:DADGBE
email me at:Zero8841434083@aol.com


E----------------------------------------------------------------------
B----------------------------------------------------------------------
G----------------------------------------------------------------------
D-00-0-5--000-7h8-0-7h8------------------------------------------------
A-00-0-5--000-7h8-0-7h8------------------------------------------------
D-00-0-5--000-7h8-0-7h8------------------------------------------------
.. . ... [intro]

E----------------------------------------------------------------------
B----------------------------------------------------------------------
G----------------------------------------------------------------------
D-00-0-5--000-7h8-0-7h8------------------------------------------------
A-00-0-5--000-7h8-0-7h8------------------------------------------------
D-00-0-5--000-7h8-0-7h8------------------------------------------------
[chorus]

E----------------------------------------------------------------------
B----------------------------------------------------------------------
G----------------------------------------------------------------------
D----------------------------------------------------------------------
A----------------------------------8--7~-------------------------------
D-00-0-7-00-0-8--7~----00-0-7-00-0-------------------------------------
[riff1]

E----------------------------------------------------------------------
B----------------------------------------------------------------------
G----------------------------------------------------------------------
D-----------------------------------8~---------------------------------
A-------------------------------7-8------------------------------------
D-00-0-7-00-0-7-8~--00-0-7-00-0----------------------------------------
[riff2]

E----------------------------------------------------------------------
B----------------------------------------------------------------------
G----------------------------------------------------------------------
D----------------------------------------------------------------------
A----------------------------------------------------------------------
D-07070707-8888-07070707-9999------------------------------------------
[bridge]

KEY:
..=palm mute
~=let ring
h=hammer on

ORDER:
intro-x2
chorus-x4
riff 1-x4
bridge-x2
chorus-x4
riff 2-x4
bridge-x4
chorus-x4