Stop Censorship
 
 

 
 1-9 a b c d e f g h i j k l m n o p q r s t u v w x y z
   Tangent - Why Tab    

band:Tangent
song:why
tuning: C# F# B E G# C#


INTRO / VERSE
C#--3--3-------------2h3------------------------------------
G#--3--3-----------3-----3p0--------------------------------
E --0--0---------0------------2-222-22-44-4444--------------
B --0--0-------2--------------2-222-22-22-2222--------------
F#--2--2-----3----------------0-000-00-00-0000--------------
C#--3--3--3-------------------------------------------------


PRE-CHORUS
C#----------------------------------------------------------
G#----------------------------------------------------------
E ----3---2---2-2h3p2----------0-00-000-0000-00-------------
B --5---5---3---------3p0-2h3--3-33-333-3333-33-------------
F#----------------------------------------------------------
C#----------------------------------------------------------


CHORUS
C#--3-3333-3-3333-3-33--0-0000-0-0000-0-00------------------
G#--3-3333-3-3333-3-33--0-0000-0-1111-0-00------------------
E --0-0000-0-0000-0-00--2-2222-2-2222-2-22------------------
B --0-0000-0-0000-0-00--2-2222-2-2222-2-22------------------
F#--2-2222-2-2222-2-22--0-0000-0-0000-0-00------------------
C#--3-3333-3-3333-3-33--0-0000-0-0000-0-00------------------


SOLO
C#----------------------------------------------------------
G#--9----11-8---------------10h11h13-10-11-13---15h17h18----
E ----10------8--------8h10---------------------------------
B --------------10~~~~--------------------------------------
F#----------------------------------------------------------
C#----------------------------------------------------------



C#--15~----15h17p15-15h17p15-15h17p15-15h17p15-17h19p17-----
G#----------------------------------------------------------
E ----------------------------------------------------------
B ----------------------------------------------------------
F#----------------------------------------------------------
C#----------------------------------------------------------



C#--17h19p17-17h19p17-17h19p17------------------------------
G#-----------------------------18h20p18-18h20p18-18h20p18---
E ----------------------------------------------------------
B ----------------------------------------------------------
F#----------------------------------------------------------
C#----------------------------------------------------------



C#----------------------------------------------------------
G#--18h20p18-14h16p14-14h16p14-14h16p14-14h16p14-12--14--12-
E ----------------------------------------------------------
B ----------------------------------------------------------
F#----------------------------------------------------------
C#----------------------------------------------------------



C#-----------------------------------------------------------------
G#------12--10--8--------------------------------------------------
E --14-------------8--8h10p8h10p8h10p8h10p8h10p8h10p8h10p8h10p8h10-
B -----------------------------------------------------------------
F#-----------------------------------------------------------------
C#-----------------------------------------------------------------