Stop Censorship
 
 

 
 1-9 a b c d e f g h i j k l m n o p q r s t u v w x y z
   Tea Party - Writings On The Wall Tab    

Drop D Tuning

Intro

E|-------------------------------------|
B|-------------------------------------|
G|-------------------------------------| Repeat 4 Times
D|-------------------------------------|
A|-------5------------5-5--------------|
D|-0-3-5--5-3-0-0-3-5-----5-3-0--------|

E|-------------------------------------|
B|-------------------------------------|
G|-------------------------------------| Repeat 4 Times
D|-------------------------------------|
A|-------3---------3-3-----------------|
D|-0-3-5-----0-3-5-----5-3-------------|

When it bends you try to walk a straight line
Something more for less and in the meantime
It changes shape and shifts it takes you over
Its just a warning sign

E|-------------------------------------|
B|-------------------------------------|
G|-------------------------------------| Repeat 2 Times
D|-------------------------------------|
A|-------5------------5-5--------------|
D|-0-3-5--5-3-0-0-3-5-----5-3-0--------|


Because the writing`s on the wall
The writing`s on the wall

E|-------------------------------------|
B|-------------------------------------|
G|-------------------------------------| Repeat 4 Times
D|-------------------------------------|
A|-------3---------3-3-----------------|
D|-0-3-5-----0-3-5-----5-3-------------|

You make a deal you swear that its the last time
No sudden moves or else your soul will be mine
And when you dance you`re dancing with the devil
Its just a warning sign...
You`re running out of time

E|------------------------------------------------------------------------------------|
B|------------------------------------------------------------------------------------|
G|------------------------------------------------------------------------------------|
D|--8888888888888-10-10-10-000000000---8888888888888--5-x-5-x-5-x-5-x-5-5-------------|
A|--8888888888888-10-10-10-000000000---8888888888888--5-x-5-x-5-x-5-x-5-5-------------|
D|--8888888888888-10-10-10-000000000---8888888888888--5-x-5-x-5-x-5-x-5-5-------------|
| not sure about this part |
| but it sound good |

You can`t relate, you still escape
Because you think you`ve seen it all
You`re right on time until you find
They`ve just been waiting for the fall

E|-------------------------------------|
B|-------------------------------------|
G|-------------------------------------| Repeat 2 Times
D|-------------------------------------|
A|-------5------------5-5--------------|
D|-0-3-5--5-3-0-0-3-5-----5-3-0--------|

Because the writing`s on the wall
The writing`s on the wall

E|-------------------------------------|
B|-------------------------------------|
G|-------------------------------------| Repeat 4 Times
D|-------------------------------------|
A|-------3---------3-3-----------------|
D|-0-3-5-----0-3-5-----5-3-------------|

When it bends you try to walk a straight line
Something more for less and in the meantime
It changes shape and shifts it takes you over
Its just a warning sign

E|------------------------------------------------------------------------------------|
B|------------------------------------------------------------------------------------|
G|------------------------------------------------------------------------------------|
D|--8888888888888-10-10-10-000000000---8888888888888--5-x-5-x-5-x-5-x-5-5-------------|
A|--8888888888888-10-10-10-000000000---8888888888888--5-x-5-x-5-x-5-x-5-5-------------|
D|--8888888888888-10-10-10-000000000---8888888888888--5-x-5-x-5-x-5-x-5-5-------------|

You can`t relate, you still escape
Because you think you`ve seen it all
You`re right on time until you find
They`ve just been waiting for the fall

E|-------------------------------------|
B|-------------------------------------|
G|-------------------------------------| Repeat 4 Times
D|-------------------------------------|
A|-------5------------5-5--------------|
D|-0-3-5--5-3-0-0-3-5-----5-3-0--------|

The Writing`s on the wall
The Writing`s on the wall
It`s seven-hundred stories tall
The Writing`s on the wall

E|-------------------------------------|
B|-------------------------------------|
G|------4-5/7-7/10---------------------| Repeat 3 times
D|-------------------------------------|
A|-------------------------------------|
D|-------------------------------------|

Take your time it`s a state of mind
Take your time just until you find
Take your time it`s a state of mind

E|-------------------------------------|
B|-------------------------------------|
G|-------------------------------------| Repeat 4 Times
D|-------5------------5-5--------------|
A|-0-3-5--5-3-0-0-3-5-----5-3-0--------|
D|-------------------------------------|

E|-------------------------------------|
B|-------------------------------------|
G|-------------------------------------| Repeat 8 Times
D|-------------------------------------|
A|-------5------------5-5--------------|
D|-0-3-5--5-3-0-0-3-5-----5-3-0--------|

The Writing`s on the wall
The Writing`s on the wall
It`s seven-hundred stories tall
The Writing`s on the wall