Stop Censorship
 
 

 
 1-9 a b c d e f g h i j k l m n o p q r s t u v w x y z
   The Androids - Do It With Madonna Tab    

This tab is pretty easy, so here you go.

VERSE:

E------------------
B------------------
G------------------
D------------------ X 4
A--5-5---5---------
E--3-3-0-3-0-------

Palm mute this bit:

E---------------|---------------|--------------|------------|
B---------------|---------------|--------------|------------|
G---------------|---------------|--------------|------------|
D--5-5----5-----|--3-3---3------|--------------|------------|
A--3-3----3-----|--1-1---1------|--5-5----5----|------------|
E-------0---0---|------0---0----|--3-3--0-3----|--3---------|

CHORUS:

strum chorus like this: down, down, up, up, down, up.
NOTE: For each chord do that strumming pattern once.

G G/F Em7 D sus

C9 Bb G


ORDER OF SONG:

VERSE
CHORUS X2
VERSE
CHORUS X4