Stop Censorship
 
 

 
 1-9 a b c d e f g h i j k l m n o p q r s t u v w x y z
   The Circle Jerks - Beverly Hills Tab    

Artist: Circle Jerks
Song: Beverly Hills
Album: Group Sex
Tabbed by: Kevin
Tuning: Standard

Intro (Distortion)
E|---------------------------------------------|
B|---------------------------------------------|
G|---------------------4-4-6-6-----------------|
D|-6-6-6-6-6-6-6-6-2-2-4-4-6-6-----------------|
A|-6-6-6-6-6-6-6-6-2-2-2-2-4-4-----------------|
E|-4-4-4-4-4-4-4-4-0-0-------------------------|
Beverly Hills century city...

Chorus
|-------------------------------------------------------------|
|-------------------------------------------------------------|
|-------------------------------------------------------------|
|-4-4-4-4-4-6-6-6-6-6-4-4-4-4-4-6-6-6-6-6-2-2-2-2-2-4-4-4-4-4-|
|-4-4-4-4-4-6-6-6-6-6-4-4-4-4-4-6-6-6-6-6-2-2-2-2-2-4-4-4-4-4-|
|-2-2-2-2-2-4-4-4-4-4-2-2-2-2-2-4-4-4-4-4-0-0-0-0-0-2-2-2-2-2-|

Chorus (continued)
|--------------------------|
|--------------------------|
|--------------------------|
|-2-2-2-2-2-4-4-4-4-4------|
|-2-2-2-2-2-4-4-4-4-4------|
|-0-0-0-0-0-2-2-2-2-2------|

On the intro, I know the chords are 100% but Iím not
sure how many times you play each one (How itís tabbed out
is really close). Listen to the song while you play it and you will get the strumming pattern. Play the whole thing with distortion!