Stop Censorship
 
 

 
 1-9 a b c d e f g h i j k l m n o p q r s t u v w x y z
   The Circle Jerks - Wild In The Streets Tab    

Artist: Circle Jerks
Song: Wild in The Streets
Album: Wild in The Streets
Tabbed by: King Buzzo
Tuning: Standard


CHORUS 1
E|--------------------------------------------------------|
B|--------------------------------------------------------|
G|--------------------------------------------------------|
D|-9--9--9--9---9--9--9--9---7--7--7--7---7--7--7--7------|
A|-9--9--9--9---9--9--9--9---7--7--7--7---7--7--7--7------|
E|-7--7--7--7---7--7--7--7---5--5--5--5---5--5--5--5------|

VERSE
E|--------------------------------------------------------|
B|--------------------------------------------------------|
G|--------------------------------------------------------|
D|-9--9--9--9---9--9--9--9---7--7--7--7---7--7--7--7------|
A|-9--9--9--9---9--9--9--9---7--7--7--7---7--7--7--7------|
E|-7--7--7--7---7--7--7--7---5--5--5--5---5--5--5--5------|
PM-------------------------------------------------|

BRIDGE
E|--------------------------------------------------------|
B|--------------------------------------------------------|
G|----------------------------------------7-7-7-7-6--5----|
D|-2------------5------------2------------7-7-7-7-6--5----|
A|-2------------5------------2------------5-5-5-5-4--3----|
E|-0------------3------------0----------------------------|
"This is America..."

Play chorus 1 twice.

CHORUS 2 x2
E|--------------------------------------------------------|
B|--------------------------------------------------------|
G|-7--7--7--7--7--7---7-6---4--4--4--4--4--4---4-6--------|
D|-7--7--7--7--7--7---7-6---4--4--4--4--4--4---4-6--------|
A|-5--5--5--5--5--5---5-4---2--2--2--2--2--2---2-4--------|
E|--------------------------------------------------------|