Stop Censorship
 
 

 
 1-9 a b c d e f g h i j k l m n o p q r s t u v w x y z
   The Crow - Eric Draven Guitar Solo Tab    

I`m %100 sure this is correct, hope you enjoy!

1st riff

----57--5-------5--------5-----5---------------
-----------8--7----5---7-----5------3----5------
------------------------------------------------
------------------------------------------------
------------------------------------------------
------------------------------------------------

2nd riff

----57--5-------5--------3-----5---------------
-----------8--7----5---7-----3-----5-----------
--------------------------------------5----------
------------------------------------------------
------------------------------------------------
------------------------------------------------
thats it...it`s a really easy song, good for those who dont have much experience with
soloing, any questions or comments or hate mail or whatever email me at ravenlord0727@yahoo.com.