Stop Censorship
 
 

 
 1-9 a b c d e f g h i j k l m n o p q r s t u v w x y z
   The Crow - Eric Draven Guitar Solo Tab    

Eric Draven Guitar Solo
From The Crow
Tabbed By: Ben Palmer (blade_10w40)

I know this isn`t perfect but it`s what I play and it sounds good.

----57--5--------5----------5-----5------------
------------8--7-----5--5/7-----5-----3/5-------
------------------------------------------------
------------------------------------------------
------------------------------------------------
------------------------------------------------

----57--5--------5----------3-----5------------
------------8--7-----5--5/7-----3-----5---------
----------------------------------------5-------
------------------------------------------------
------------------------------------------------
------------------------------------------------

----------------------------------------------------------------8---------------------------------------------
-------------8-----------10-----------10-----------12-----------------------12-----------10----------10-------
----9--9--9-----9--9--9------9--9--9------9--9--9------9--9--9-----9--9--9------9--9--9------9--9--9----------
--------------------------------------------------------------------------------------------------------------
--------------------------------------------------------------------------------------------------------------
--------------------------------------------------------------------------------------------------------------

------------------------------------------------
------------------------------------------------
--5--5/7--7/9--5--5--5--5/7--7--7--7/9----------
--5--5/7--7/9--5--5--5--5/7--7--7--7/9----------
--3--3/5--5/7--3--3--3--3/5--5--5--5/7----------
------------------------------------------------