Stop Censorship
 
 

 
 1-9 a b c d e f g h i j k l m n o p q r s t u v w x y z
   The Crow - Rooftop Solo Tab    

Movie: The Crow
Song: Rooftop Solo by Eric Draven (brendan lee)
Tab: Rudy Cortez (nemesis335142@tx.freei.net)

E|-------------------------------------|
B|-12-10-8-7--10-------8---8---10------|
G|---------------9--11----7--7----7--9-|
D|-------------------------------------|
A|-------------------------------------|
E|-------------------------------------|

E|-----------------------------------||
B|-12-10-8-7--10-------8----10-------|| Repeat
G|---------------9--11---7-----7--9--||
D|-----------------------------------||
A|-----------------------------------||
E|-----------------------------------||


E||-0-0-3-0--0-0-5-0--0-0-5-0--0-0-7-0--0-0-8-0-|
B||---------------------------------------------|
G||---------------------------------------------|
D||---------------------------------------------|
A||---------------------------------------------|
E||---------------------------------------------|

E|-0-0-7-0--0-0-5-0--0-0-3---|
B|-------------------------0-|
G|---------------------------|
D|---------------------------|
A|---------------------------|
E|---------------------------|

E|--------------------------------------------------------------|
B|-(4)-x--x---x--x--x-------------------------------------------|
G|--5--7--9---5--7--9-----------------------2-4-2-4-2-4-2-4-2-4-|
D|--5--7--9---5--7--9---3-5-3-5-3-5-3-5-3-5---------------------|
A|--3--5--7---3--5--7-------------------------------------------|
E|--0-----------------------------------------------------------|

E|--------------------5-7-5-7-5-7-5-7-5-7-10-12-10-12-10-12-10-12-10-12-|
B|3-5-3-5-3-5-3-5-3-5---------------------------------------------------|
G|----------------------------------------------------------------------|
D|----------------------------------------------------------------------|
A|----------------------------------------------------------------------|
E|----------------------------------------------------------------------|
*feedback
E|-12-15-12-15-12-15-12-15-12-15-------------------|
B|-------------------------------0-----------------|
G|---------------------------------/0--17)--17-----|
D|---------------------------------/0-----------0--|
A|---------------------------------------------(2)-|
E|-------------------------------------------------|