Stop Censorship
 
 

 
 1-9 a b c d e f g h i j k l m n o p q r s t u v w x y z
   The Icarus Line - Feed A Cat To Your Cobra Tab    

Band Name: the icarus line
Song Name: feed a cat to your cobra
Album: mono
Tuning: standard
Tabbed by: caspar w clark


Intro
|------------------------|
|------------------------|
|---9-8-7-x-7------------|
|---9-8-7-x-7--99999999--|
|---7-6-5-x-5--99999999--|
|--------------99999999--|
interlude
|------------------------------------|
|------------------------------------|
|------------------------------------|
|-------5-------5-------5---5-7------|
|--0-4-----0-4-----0-4------5-7------|
|---------------------------5-7------|

Bridge
|------------------------------------|
|------------------------------------|
|------------------------------------|
|-------5-------5-5b-------5---5-7---|
|--0-4-----0-4--------0-4------5-7---|
|------------------------------5-7---|

|-----------------------------|
|-----------------------------|
|-----------------------------|
|--5555-5555-5555-5555-3~~~---|
|--5555-5555-5555-5555-3~~~---|
|--5555-5555-5555-5555-3~~~---|

Slow bit
|---------------------------------|
|---------------------------------|
|----5--7b-------5--7b-7--5-------|
|--7----------7---------------7---|
|---------------------------------|
|---------------------------------|

Last part
|-----------------------------------|
|-----------------------------------|
|-----------------------------------|
|--88-88-88-88-88-88-88-88-88-88----|
|--88-88-88-88-88-88-88-88-88-88----|
|--88-88-88-88-88-88-88-88-88-88----|

|-----------------|
|-----------------|
|-----------------|
|--88-5-7-5-222---|
|--88-5-7-5-222---|
|--88-5-7-5-222---|

|---------------------------------------------|
|---------------------------------------------|
|---------------------------------------------|
|--888-5-7-5-888-5-7-5-888-5-7-5-888-5-7-5----|
|--888-5-7-5-888-5-7-5-888-5-7-5-888-5-7-5----|
|--888-5-7-5-888-5-7-5-888-5-7-5-888-5-7-5----|

|-------------------|
|-------------------|
|-------------------|
|--88-88-88-88-88---|
|--88-88-88-88-88---|
|--88-88-88-88-88---|