Stop Censorship
 
 

 
 1-9 a b c d e f g h i j k l m n o p q r s t u v w x y z
   The Mark Of Cain - Degenerate Boy Tab    

Artist: The Mark of Cain
Song: Degenerate Boy

Intro
E|------------------------------------------------------------------------------
B|---------------3--------------------------------------------------------------
G|-2-------2-----2------2--------2----------------------------------------------
D|-2-------2-----0------2--------2--------4harm.--------------------------------
A|-0-h3-h4-0-----0------0--h3-h4-0--5harm.--------------------------------------
E|---------------2--------------------------------------------------------------

E|------------------------------------------------------------------------------
B|---------------3--------------------------------------------------------------
G|-2-------2-----2-----2--------2-----------------------------------------------
D|-2-------2-----0-----2--------2-----------------------------------------------
A|-0-h3-h4-0-----0-----0--h3-h4-0------3p0-4-3-2--------------------------------
E|---------------2-------------------2------------------------------------------
verse/main riff
E|-----------------------------|------------------------------------------------
B|-----------------------3--3--|------------------------------------------------
G|--2-------2-2-2-2---2--2--2--|-play 8 times, then-----------------------------
D|--2-------2-2-2-2---2--0--0--|------------------------------------------------
A|--0-h3-h4-0-0-0-0---0--0--0--|------------------------------------------------
E|-----------------------2--2--|------------------------------------------------

E|-----------------|----0------0--0------|--------------------------------------
B|-----------------|----3------3--3------|--------------------------------------
G|-----------------|.---2-2-2--0--0-----.|--then verse 1 more time--------------
D|-----------------|.-0---0-0--0--0-----.|--------------------------------------
A|-0-0-2-2-3-3-4-4-|-----------3--2-2h3--|--------------------------------------
E|-----------------|---------------------|--------------------------------------
chorus
E|--0-------------------------------5harm.--------------------------------------
B|--0-------------------------------5harm.--------------------------------------
G|--1--hit this chord a bit, then---5harm.--------------------------------------
D|--2---------------------------------------------------------------------------
A|--2---------------------------------------------------------------------------
E|--0---------------------------------------------------------------------------