Stop Censorship
 
 

 
 1-9 a b c d e f g h i j k l m n o p q r s t u v w x y z
   The Mark Of Cain - First Time Tab    


Artist: The Mark of Cain
Song: First Time

Standard Tuning. E A D G B E
Intro Riff 1 (Chorus)
|--------------------|------------------------------------------------------------------|
|--------------------|------------------------------------------------------------------|
|---4-4------5-5-----|------------------------------------------------------------------|
|---4-4------5-5-----|--8-8---5--7--2-2--5--7--8---5--7--2--8-7-5--8-8---5--7--2--2--5--|
|---2-2------3-3-----|--8-8---5--7--2-2--5--7--8---5--7--2--8-7-5--8-8---5--7--2--2--5--|
|--------------------|--6-6---3--5--0-0--3--5--6---3--5--0--6-5-3--6-6---3--5--0--0--3--|
Riff 2 (Very Heavy)
|----Let Ring-------|
|-------------------|------------------------------------------------------------------|
|-------------------|---------------------------------0--------------------------------|
|-------------------|---------------------------------0--------------------------------|
|-4--4--4--4--4--5--|--4----4--4---4---4--4--4-----------------------------------------|
|-4--4--4--4--4--5--|-------4--4-------4--4--------------------------------------------|
|-0--2--2--0--2--3--|-------2--2-------2--2--------------------------------------------|
Riff 4
|-P.M.| |-P.M.| |P.M| |P.M | |P.M| |P.M |
|--------------------------------------------------------------------------------|
|--------------------------------------------------------------------------------|
|--------------------------------------------------------------------------------|
|--2-2--2----4----2-2--2----4---2-2--4---2-2--2----4---2-2-2--4--2--2---5--------|
|--2-2--2----4----2-2--2----4---2-2--4---2-2--2----4---2-2-2--4--2--2---5--------|
|--2-2--2----4----2-2--2----4---2-2--4---2-2--2----4---2-2-2--4--2--2---5--------|
|--0-0--0----2----0-0--0----2---0-0--2---0-0--0----2---0-0-0--2--0--0---3--------|
Riff 5 (Verse)
|--------------------------------------------------------|
|--------------------------------------------------------|
|--------------------------------------------------------|
|--2-2-2-2-2-2-2-2-2-2-2-2-2-2-2-2-2-2-2-2-2-2-2-2-2-2-5-|
|--2-2-2-2-2-2-2-2-2-2-2-2-2-2-2-2-2-2-2-2-2-2-2-2-2-2-5-|
|--3-0-0-4-0-0-3-0-0-4-0-0-3-0-4-3-0-0-4-0-0-3-0-0-4-0-3-|