Stop Censorship
 
 

 
 1-9 a b c d e f g h i j k l m n o p q r s t u v w x y z
   Ufo - Doctor Doctor Tab    

Artist: UFO
Song: Doctor Doctor

D A# F C G A
E|-5-----1-----1----3----3-----5--|
B|-7-----3-----1----5----3-----5--|
G|-7-----3-----2----5----4-----6--|
D|-7-----3-----3----5----5-----7--|
A|-5-----1-----3----3----5-----7--|
E|-5-----1-----1----3----3-----5--|



E|---------------------------------5--8-5-8--8^(10)(8)-8h10p8--65/65--------------------------------------|
B|----5-6-----8^(10)(8)-6-5-5h6---6-------------------------------------------8-5h6-8p5-8p5-6~ -------------|
G|-7------7~ --------------------7--------------------------------------------------------------------------|
D|----------------------------------------------------------------------------------------------------------|
A|----------------------------------------------------------------------------------------------------------|
E|----------------------------------------------------------------------------------------------------------|

E|--------------------------10-12-13-10---------------------------------------------------------------------|
B|----10-13------------------------------10-13-13^(15)(13)^(14)---5h6-8p5-8p5-6-----------------------------|
G|------------12^(13)(12)-----------------------------------------------------------------------------------|
D|-12-------------------------------------------------------------------------------------------------------|
A|----------------------------------------------------------------------------------------------------------|
E|----------------------------------------------------------------------------------------------------------|


E|-------------10 12/13-12-10-13^(15)(13)--10---------------------------------------------------------------|
B|----------10---------------------------------------13-----------------------------------------------------|
G|-------10---------------------------------------------12^(14)(12)-10--------------------------------------|
D|----12------------------------------------------------------------------12--------------------------------|
A|-12-------------------------------------------------------------------------------------------------------|
E|----------------------------------------------------------------------------------------------------------|

D A# F C D A# F G A
E|-----------------------------------------------------8^(10)(8)--8^(9)-8r-6--1-----6----6------------------|
B|------------------------------------5^(6)-5r-3--1/6-6-----------8^(9)-8r-6--2-2-3--4-4--5-----------------|
G|---0-2-3--5-2-3-2----0-2-3--2--4-6--5^(6)-5r-3--2---------------------------------------------------------|
D|-3-----------------3--------------------------------------------------------------------------------------|
A|----------------------------------------------------------------------------------------------------------|
E|----------------------------------------------------------------------------------------------------------|

VERSE

D A#
Doctor doctor, please,
F C
Oh the mess I’m in
D A#
She walked up to me
F C
And really stole my heart
D A#
And then she started
F G A
To take my body apart

BRIDGE

D C A# F
livin’, lovin’, I’m on the run
G A D
Far away from you
D C A# F
Livin’, lovin’, I’m on the run
G A D
So far away from you


D A# F C D A# F G A
E|---------------------------8^(10)(8)--8^(9)-8r-6-----1-----6----6---------------------------------------|
B|--5^(6)-5r-3------1/6-6---------------8^(9)-8r-6-----2-2-3-4-4-5----------------------------------------|
G|--5^(6)-5r-3------2-------------------------------------------------------------------------------------|
D|--------------------------------------------------------------------------------------------------------|
A|--------------------------------------------------------------------------------------------------------|
E|--------------------------------------------------------------------------------------------------------|

VERSE

D A#
Doctor doctor, please
F C
Oh, I’m goin’ fast
D A#
Doctor doctor, please,
F C
Oh, I’m goin’ fast
D A#
It’s only just a moment,
F C
She’s turnin’ paranoid
D A#
That’s not a situation
F G A
For a nervous boy



BRIDGE

D C A# F

G A D

D C A# F

G A D


D A# F C D A# F G A
E|---------------------------8^(10)(8)--8^(9)-8r-6-----1-----6----6---------------------------------------|
B|--5^(6)-5r-3------1/6-6---------------8^(9)-8r-6-----2-2-3-4-4-5----------------------------------------|
G|--5^(6)-5r-3------2-------------------------------------------------------------------------------------|
D|--------------------------------------------------------------------------------------------------------|
A|--------------------------------------------------------------------------------------------------------|
E|--------------------------------------------------------------------------------------------------------|

VERSE

D A#
Doctor doctor, please
F C
Oh, the mess I’m in
D A#
Doctor doctor, please,
F C
Oh, the mess I’m in
D A#
But you look so angry
F C
As I crawled across your floor
D A#
She’s got the strain,
F C
And I can’t take any more

BRIDGE

D C A# F
livin’, lovin’, I’m on the run
G A D
Far away from you
D C A# F
Livin’, lovin’, I’m on the run
G A D
So far away from you

D A# F C D A# F G A
E|--------------------------8^(10)(8)--8^(9)-8r-6-----1-----6----6------------------------------------------|
B|--5^(6)-5r-3-----1/6-6---------------8^(9)-8r-6-----2-2-3-4-4-5-------------------------------------------|
G|--5^(6)-5r-3-----2----------------------------------------------------------------------------------------|
D|----------------------------------------------------------------------------------------------------------|
A|----------------------------------------------------------------------------------------------------------|
E|----------------------------------------------------------------------------------------------------------|
D A# F C D A# F G A
E|---------------------------8^(10)(8)--8^(9)-8r-6-----1-----6----6-----------------------------------------|
B|--5^(6)-5r-3------1/6-6---------------8^(9)-8r-6-----2-2-3-4-4-5------------------------------------------|
G|--5^(6)-5r-3------2---------------------------------------------------------------------------------------|
D|----------------------------------------------------------------------------------------------------------|
A|----------------------------------------------------------------------------------------------------------|
E|----------------------------------------------------------------------------------------------------------|

E|----------------------------------------------------------------------------------------------------------|
B|-7-6-5----------------------------------------------------------------------------------------------------|
G|-------7p6h7p6-5-5-4-3------------------------------------------------------------------------------------|
D|-------------------------5-4-3----------------------------------------------------------------------------|
A|-------------------------------5-4-3h4p3h4p3h4p3h4p3h4p3h4------------------------------------------------|
E|---------------------------------------------------------------0------------------------------------------|

Gradually slow this part down w/ lots of distortion (this isn’t exactly rite, but sounds ok!)

Listen to the song for the rhythm as it changes for the bridge