Stop Censorship
 
 

 
 1-9 a b c d e f g h i j k l m n o p q r s t u v w x y z
   Und1sclosed - Again And Again Tab    


standurd, heavy crunch distortion

intro :


e---------------------------
b---------------------------
g------------------99999----
d--777777--999999--99999888-
a--777777--999999--77777777-
E--444444--777777-----------



Interlude:

e-------------------------------------------------------
b-------------------------------------------------------
g------------------99999-11-11-11-11-11--13-13-13-13-13-
d--777777--999999--99999-11-11-11-11-11--13-13-13-13-13-
a--777777--999999--77777-9--9--9--9--9---11-11-11-11-11-
E--444444--777777---------------------------------------


e-----------------
b--5-5-5-5-5-5-5-6
g--5-5-5-6-5-5-5-5
d--5-5-5-5-5-5-5-5
a-----------------
E-----------------