Stop Censorship
 
 

 
 1-9 a b c d e f g h i j k l m n o p q r s t u v w x y z
   Und1sclosed - Endless Game Tab    


standard tuning

soft grunge effect

play slow

Riff

-5----------5---------------------------------
-----8--5------8---5--------------5-----------
----------------------7--5--7--7----7-5-------
----------------------------------------7-----
----------------------------------------------
----------------------------------------------
bend up 1/2
----------------------------------------------
-----5-------------5---7------------7---------
--7-----7-7----5-7----------------------------
----------------------------------------------
----------------------------------------------
----------------------------------------------


Bridge

Am C D
-------0----------------0---------2-----------
-------1--------------1-----------3-----------
-----2--------------0-----------2----2--------
------------------------------0---------------
-0------------2-3-----------------------------
----------------------------------------------

D7
--------1-------------------------------------
----------1---1-------------------------------
-----2------2---------------------------------
--0-------------------------------------------
----------------------------------------------
----------------------------------------------


Chorus

C G Am C D D7

timmy P