Stop Censorship
 
 

 
 1-9 a b c d e f g h i j k l m n o p q r s t u v w x y z
   Und1sclosed - Kick Out The Jams Tab    

this is kick out the jams, originally by the mc5 and covered by varius bands such as silverchair, jeff buckley and rage agaisnt the machine.

this is a very heavy grunge version.

enjoy.

e---------------------------------------------------------------------------
B---------------------------------------------------------------------------
G---6--6--6---3-------------------------------------------------------------
D---6--6--6---3-------------------------------------------------------------
A---4--4--4---1-------------------------------------------------------------
E----------------1/161---0--0--3--5--5--5--5--0--0--3--5--5--5--5----------
(ect. Until)

Chorus

e---------------------------------------------------------------------------
B---------------------------------------------------------------------------
G-----------3--6--6--6--6--6--6--6---8---8--8--8----------------------------
D--6--6--6--3--6--6--6--6--6--6--6---8---8--8--8----------------------------
A--6--6--6--1--4--4--4--4--4--4--4---6---6--6--6----------------------------
E--5--5--5------------------------------------------------------------------

sorry guys no solo at the moment ill update soon


Then go back into the verse, finish with the chorus and you`re done.
thanks again