Stop Censorship
 
 

 
 1-9 a b c d e f g h i j k l m n o p q r s t u v w x y z
   Und1sclosed - Saved Tab    

if you like rock/grunge you will love this band
rock on


-------------------------------------------------------------
-------------------------------------------------------------
---4---4-----------------------------------4---4---7---------
---4---4---5---5---5---4---4---2---2---2---4---4---7---------
---2---2---5---5---5---4---4---2---2---2---2---2---5---------
-----------3---3---3---2---2---0---0---0---------!-----------
Slide Here



---------------------------------|---------------------------
---------------------------------|---------------------------
----7---7------------------------|---------------------------
----7---7---7---7---5---5---5----|---5---5-----7---7---7-----
----5---5---7---7---5---5---5----|---5---5-----7---7---7-----
------------5---5---3---3---3----|---3---3--!--5---5---5-----
Slide Here


-------------------------------------------------------------
-------------------------------------------------------------
-------------------------------------------------------------
---4---4-----6---6---6---------------------------------------
---4---4-----6---6---6---------------------------------------
---2---2--!--4---4---4---------------------------------------


Tim P

<