Stop Censorship
 
 

 
 1-9 a b c d e f g h i j k l m n o p q r s t u v w x y z
   Und1sclosed - Silent Shadow Tab    

a basic song by singer/songwriter dale c, but a catchy tune, these kids are gonna be famous.


* - palm muted

E|----------------------------------------
B|----------------------------------------
G|----------------------------------------
D|--7--9-9---9-9-9-9-9-9-9-9-9-9-9-9-9-9--
A|--7--9-9---9-9-9-9-9-9-9-9-9-9-9-9-9-9--
E|--5--7-7---7-7-7-7-7-7-7-7-7-7-7-7-7-7--
* * * * * * * * * * * * * *

E|----------------------------------------
B|----------------------------------------
G|----------------------------------------
D|--7--7-----7-7-7-7-7-7-7-7-7-7-7-7-7-7--
A|--7--7-----7-7-7-7-7-7-7-7-7-7-7-7-7-7--
E|--5--5-----5-5-5-5-5-5-5-5-5-5-5-5-5-5--
* * * * * * * * * * * * * *

E|----------------------------------------
B|----------------------------------------
G|----------------------------------------
D|--6--6-----6-6-6-6-6-6-6-6-6-6-6-6-6-6--
A|--6--6-----6-6-6-6-6-6-6-6-6-6-6-6-6-6--
E|--4--4-----4-4-4-4-4-4-4-4-4-4-4-4-4-4--
* * * * * * * * * * * * * *

E|----------------------------------------
B|----------------------------------------
G|----------------------------------------
D|--4--4-----4-4-4-4-4-4-4-4-4-4-4-4-4-4--
A|--4--4-----4-4-4-4-4-4-4-4-4-4-4-4-4-4--
E|--2--2-----2-2-2-2-2-2-2-2-2-2-2-2-2-2--
* * * * * * * * * *

E|----------------------------------------
B|----------------------------------------
G|----------------------------------------
D|-----9-9---9-9-9-9-9-9-9-9-9-9-9-9-9-9--
A|-----9-9---9-9-9-9-9-9-9-9-9-9-9-9-9-9--
E|-----7-7---7-7-7-7-7-7-7-7-7-7-7-7-7-7--
* * * * * * * * * * * * * *

E|----------------------------------------
B|----------------------------------------
G|----------------------------------------
D|--7--7-----7-7-7-7-7-7-7-7-7-7-7-7-7-7--
A|--7--7-----7-7-7-7-7-7-7-7-7-7-7-7-7-7--
E|--5--5-----5-5-5-5-5-5-5-5-5-5-5-5-5-5--
* * * * * * * * * * * * * *

E|----------------------------------------
B|----------------------------------------
G|----------------------------------------
D|--6--6-----6-6-6-6-6-6-6-6-6-6-6-6-6-6--
A|--6--6-----6-6-6-6-6-6-6-6-6-6-6-6-6-6--
E|--4--4-----4-4-4-4-4-4-4-4-4-4-4-4-4-4--
* * * * * * * * * * * * * *

E|----------------------------------------
B|----------------------------------------
G|----------------------------------------
D|--4--4-----4-4-4-4-4-4-4-4-4-4-4-4-4-4--
A|--4--4-----4-4-4-4-4-4-4-4-4-4-4-4-4-4--
E|--2--2-----2-2-2-2-2-2-2-2-2-2-2-2-2-2--
*


E|----------------------------------------------------------
B|----------------------------------------------------------
G|----------------------------------------------------------
D|--9---9---9---9---9---9---6---6---6---6---7---7---7---7---
A|--9---9---9---9---9---9---6---6---6---6---7---7---7---7---
E|--7---7---7---7---7---7---4---4---4---4---5---5---5---5---



E|----------------------------------------------------------
B|----------------------------------------------------------
G|----------------------------------------------------------
D|--9---9---9---9---9---9---4---4---4---4---7---7---7---7---
A|--9---9---9---9---9---9---4---4---4---4---7---7---7---7---
E|--7---7---7---7---7---7---2---2---2---2---5---5---5---5---



E|----------------------------------------------------------
B|----------------------------------------------------------
G|----------------------------------------------------------
D|--9---9---9---9---9---9---6---6---6---6---7---7---7---7---
A|--9---9---9---9---9---9---6---6---6---6---7---7---7---7---
E|--7---7---7---7---7---7---4---4---4---4---5---5---5---5---



E|----------------------------------------------------------
B|----------------------------------------------------------
G|----------------------------------------------------------
D|--9---9---9---9---9---9---4---4---4---4---7---7---7---7---
A|--9---9---9---9---9---9---4---4---4---4---7---7---7---7---
E|--7---7---7---7---7---7---2---2---2---2---5---5---5---5---


timmy P