Stop Censorship
 
 

 
 1-9 a b c d e f g h i j k l m n o p q r s t u v w x y z
   Vai Steve - Tender Surrender Tab    

All the guitar and/or sitar parts are as detailed and precise as it can get.
I will post what each guitar does one after another so you might have some compilating and scrolling down to do! You have to read the tabs and the different guitars as a compilation. Each bar plays at the same time. Not “AFTER” the example; guitar 1.

So you give each guitar part to each guitarist and play at the same time depending on what you see… just to clear things up. Same applies with all my other Tabs.
Enjoy.


Clean tone guitar 1



Em7 Am7
E||------------------10/-----------|---------------5h7h5-------------|
B||-------8--10--12/-----12/10/8---|--8/10-----10/-------5-5h7-------|
G||----9-------------7/------------|-----------------------5-7-5-----|
D||-------5--7---9/------9/-7/-5-5-|--5/7------7/----------5-----5h7-|
A||----7---------------------------|---------------------------------|
E||--------------------------------|---------------------------------|


D Em Em7
-------------------------------|-------------10-7-------------|
--------12/10/8---10-----------|-------------8--------8-------|
------------------------7/-12--|--9---------------7---7-------|
------9-9/-7/-5-5/7------------|--------------------7-9-7-----|
--5---------------------5/-10--|--7-----------------------10--|
-------------------------------|--------0-0-------------------|


Em7 Am7
-------------------12------------|---------------0--------------|
--8-----8--10--12/-----12/10/8-8-|--8/10-----10/-0--------------|
--7--9-------------9-------------|---------------4/2h0-2--0-2-0~|
--9-----5--7---9/------9/-7/-5-5-|--5/7------7/-----------------|
-----7---------------------------|------------------------------|
---------------------------------|------------------------------|


D Em
-------------------------------|-------------12--10-------------|
--------12/10/8/-10------------|-------------12--10---11/10-7-8-|
--2---------------------7/-11--|--11r---9----11--9--7/10/9--7-7-|
------9-9/-7/-5/-7-------------|--------------------7/----------|
----------------------5-5/-9---|--9r----7-----------------------|
-------------------------------|--------------------------------|


Em7 C7
------------------------------|------------0-----------|
------------------------------|--0-----------0------0/-|
--9---9-9/7/4-4-4/7---7/4-4/5-|--5-------------5-------|
--9---------------------------|--5-------5-------------|
------7-7/5/2-2-2/5---5/2-2---|--3---------------------|
------------------------------|------------------------|


D Em7
-------------------------------|------------------7h10h7-----------|
------10-10/8-8/-12/-10--8-----|--10/12-----12/--------8h10-8-8/12-|
--7-------------------------7--|-----------------------7------9----|
------7--7/-5-5/-9/--7---5-----|--7/-9------9/----------------7----|
--5-------------------------5--|-----------------------------------|
-------------------------------|-----------------------------------|


Em9 Dm13
--14---------------------------|--------0--------------------------|
--12---------------------------|-----0----------12-----12-10-------|
---------9/7/4-4-4/7----7/4-4--|--5~------------12--10/12-10-------|
-------------------------------|--7~------------12--10/12----12-11-|
-------7-7/5/2-2-2/5--5-5/2-2--|--5~-------------------------12-11-|
-------------------------------|-----------------------------------|


G11 C7
-------------------------------|----------------------12-----------|
----------10/8---3----10/8--8--|--12--8-10---------------12--------|
-----------------2h0-----------|------------9--12-----------12-----|
--10------7/-5--------7/-5--5--|--9---5-7----------------------12--|
--10---------------------------|------------7--10------------------|
-------------------------------|-----------------------------------|


F9#11 F#m7
-----------------10/11/10/---------|------------------------0------|
--------------------------12/10----|-----12-12-14-15/-17/---0------|
-----7--7-8--10--7/-8/-7/----------|---------------------------2-2-|
--------------------------9/-7-----|-----9--9--11-12/-14/----------|
-----5--5-6--8---------------------|-------------------------------|
-----------------------------------|-------------------------------|


B7sus4 Em7
--------------------17--15-14---12--|--14r12/14-------17-14-12-10--7-5/7-|
-----12-12--14--15/-----------------|-----------------15-12-10-8---5-3/5-|
--------------------14--12-11---9---|--11r9/-11-------14-11-9--7---4-2/4-|
-----9--9---11--12/-----------------|-----------------14-------------2/4-|
------------------------------------|------------------------------------|
------------------------------------|------------------------------------|


Esus2
-----------------------------------------|---------------------------------|
--5------------------15b--15r12----------|---------------------------------|
--4------------12---------------14-12----|--12/14~-----12h14h12h-----------|
--4------12-14------------------------14-|----------------------14h12------|
------12b---------14---------------------|---------------------------------|
-----------------------------------------|---------------------------------|


D
--------------------------------------------------------|
--------------------------------------------15-12-------|
--12-13-14-12~--------14r-12----12-13-14----------14-12-|
----------------14-12--------14----------12/------------|
--------------------------------------------------------|
--------------------------------------------------------|


Em7 D/E
------------------------------------|---------------------------------|
---12~------------------------------|--7----15b-15b15b15b--15b15b--15-|
---12~------------------------------|--7------------------------------|
---12~------------------------------|--7------------------------------|
---14/12-10-----12r-10----10-11-12--|--7------------------------------|
-----------------------12-----------|---------------------------------|


Am7 D
------------------------15-------|-----------10-------------------|
--12-----------------------------|--15------------8r8-------------|
-----14/15-14--------------12h14b|-----14-------7-7r7------7------|
---------------------------------|---------------------9/7-7--5---|
---------------------------------|------------------------------5-|
---------------------------------|--------------------------------|


E5 D Em D E5 D Em
-------------------------|--------------------------------------|
------7---8------7-------|-------7---8-----------------14-------|
------7---9------7---9---|-------7---9---9-------14-14b14-12----|
--9---7---9--9---7---9---|--9----7---9-9-9----14-14-14b14-12----|
--7-------7--7---------7-|--7--9-------7-7/14----------------14-|
--0----------0---------0-|--0-----------------------------------|


Em7 D/E Em7 D/E Em7
----------------------------|-------------------------------|------------------|
---------------12/----------|--12/--------------------------|------------------|
--12/---7---9--12/---7---9--|--12/---7---9------------------|------------------|
--12/---7---9--12/---7---9--|--12/---7---7------------------|------------------|
--------7---7--------7---7--|--------7---7------------------|------------------|
------0------------0--------|------0------------------------|------------------|



------------------|------------------|------------------|------------------|
------------------|------------------|------------------|------------------|
------------------|------------------|------------------|------------------|
------------------|------------------|------------------|------------------|
------------------|------------------|------------------|------------------|
------------------|------------------|------------------|------------------|



------------------|------------------|------------------|------------------|
------------------|------------------|------------------|------------------|
------------------|------------------|------------------|------------------|
------------------|------------------|------------------|------------------|
------------------|------------------|------------------|------------------|
------------------|------------------|------------------|------------------|



------------------|----------------------|------------------|------------------|
------------------|----------------------|------------------|------------------|
------------------|----------------------|------------------|------------------|
------------------|----------------------|------------------|------------------|
------------------|----------------------|------------------|------------------|
------------------|----------------------|------------------|------------------|



------------------|------------------|------------------|------------------|
------------------|------------------|------------------|------------------|
------------------|------------------|------------------|------------------|
------------------|------------------|------------------|------------------|
------------------|------------------|------------------|------------------|
------------------|------------------|------------------|------------------|



------------------|------------------|------------------|------------------|
------------------|------------------|------------------|------------------|
------------------|------------------|------------------|------------------|
------------------|------------------|------------------|------------------|
------------------|------------------|------------------|------------------|
------------------|------------------|------------------|------------------|



------------------|------------------|------------------|------------------|
------------------|------------------|------------------|------------------|
------------------|------------------|------------------|------------------|
------------------|------------------|------------------|------------------|
------------------|------------------|------------------|------------------|
------------------|------------------|------------------|------------------|



------------------|------------------|------------------|------------------|
------------------|------------------|------------------|------------------|
------------------|------------------|------------------|------------------|
------------------|------------------|------------------|------------------|
------------------|------------------|------------------|------------------|
------------------|------------------|------------------|------------------|



------------------|-----------------10-----------|
------------------|------8--10--12------12/10/8/-|
------------------|-----------------7------------|
------------------|------5--7---9-------9/-7/-5/-|
------------------|------------------------------|
------------------|------------------------------|


Am7 D
------------10h7---------------|-----------------------------|
--10-------------8---8---8-----|-------12/10----8/10---------|
-------------------9-7h9-7-----|--------------------------7--|
--7------------------------9-7-|-----9-9/-7--7---------------|
-------------------------------|------------------------5----|
-------------------------------|-----------------------------|


Em7 Em11 Em11
----------------------0-----|--0--------------------|
------------------------3---|--3--------12----15----|
--11------9/-9/-4---------2-|--2--------------------|
----------------------------|-----------9-----12----|
--9/--7/5/7/-7/-2-----------|-----------------------|
----------------------------|-----------------------|


Am7 D
---------------------------|----------------------------|------------|
--10----------10--12--10-8/|--12-10---10--8--7----------|------------|
---------------------------|--------------------9--7----|--------4-7-|
--7------------------------|----------------------------|------------|
---------------------------|----------------------------|------------|
---------------------------|----------------------------|------------|



-------------------------------|-----------------------|
-------------------------------|-----------------------|
--9------4-9-9-12-11--9-11-7-9-|--4----2--7/-4/-----7/-|
-------------------------------|-----------------------|
-------------------------------|-----------------------|
-------------------------------|-----------------------|



-----------------------------|-------------------||
-----------------------------|-------------------||
--9/-12/-11/-9/-11/-7/-9/-4/-|------2------------||
-----------------------------|-------------------||
-----------------------------|-------------------||
-----------------------------|-------------------||


Distorsion guitar 2




E||------------------|------------------|------------------|------------------|
B||------------------|------------------|------------------|------------------|
G||------------------|------------------|------------------|------------------|
D||------------------|------------------|------------------|------------------|
A||------------------|------------------|------------------|------------------|
E||------------------|------------------|------------------|------------------|



------------------|------------------|------------------|------------------|
------------------|------------------|------------------|------------------|
------------------|------------------|------------------|------------------|
------------------|------------------|------------------|------------------|
------------------|------------------|------------------|------------------|
------------------|------------------|------------------|------------------|



------------------|------------------|------------------|------------------|
------------------|------------------|------------------|------------------|
------------------|------------------|------------------|------------------|
------------------|------------------|------------------|------------------|
------------------|------------------|------------------|------------------|
------------------|------------------|------------------|------------------|



------------------|------------------|------------------|------------------|
------------------|------------------|------------------|------------------|
------------------|------------------|------------------|------------------|
------------------|------------------|------------------|------------------|
------------------|------------------|------------------|------------------|
------------------|------------------|------------------|------------------|



------------------|------------------|------------------|------------------|
------------------|------------------|------------------|------------------|
------------------|------------------|------------------|------------------|
------------------|------------------|------------------|------------------|
------------------|------------------|------------------|------------------|
------------------|------------------|------------------|------------------|



------------------|------------------|------------------|------------------|
------------------|------------------|------------------|------------------|
------------------|------------------|------------------|------------------|
------------------|------------------|------------------|------------------|
------------------|------------------|------------------|------------------|
------------------|------------------|------------------|------------------|



------------------|------------------|------------------|------------------|
------------------|------------------|------------------|------------------|
------------------|------------------|------------------|------------------|
------------------|------------------|------------------|------------------|
------------------|------------------|------------------|------------------|
------------------|------------------|------------------|------------------|



------------------|------------------|
------------------|------------------|
------------------|------------------|
------------------|------------------|
------------------|------------------|
------------------|------------------|


D/E Em7
---------------------------------------------------------------|
---------------------------------------------------------------|
--------------14-14r14r14r14r-14r-14b14b14b14b14b-14b14r-12----|
----------14------------------------------------------------14-|
----------14---------------------------------------------------|
---------------------------------------------------------------|


Am7
---------------------12-------12-----------|
------------x---15b-----15h12----12--------|
--12/14~----------------------------14r-12-|
-------------------------------------------|
-------------------------------------------|
-------------------------------------------|


D
-----------------------------------------------------------|
---------------------------------------12----12h10h--------|
--14b14-12h14~-12---9h12-11r-9----9h11----11b------12h11h9-|
-------------------------------12--------------------------|
-----------------------------------------------------------|
-----------------------------------------------------------|


Em7
--12-------------------------------------------------|
-----------------------------------------------------|
-----11r-9----9-11-11b11-11b11-11b-11r-11b11--12b-12b|
-----------12----------------------------------------|
-----------------------------------------------------|
-----------------------------------------------------|



------------------------------|
------------------------------|
--12b-------------9----9h12-9-|
--------------------12--------|
------------------------------|
------------------------------|


Am7
----------------10h---------------------12h15h12------|
-----------12r--10-12h13h12h10----10h13----------13---|
--9------9---------------------12-------------------0-|
------------------------------------------------------|
------------------------------------------------------|
------------------------------------------------------|


D
-----------------------------------------------------------------------|
--13h12h10----13h12h10----10------12---10h8h7h8h10h8h7h----------------|
-----------12----------12----12-9----9/----------------9h7-9r7---------|
---------------------------------------------------------------7-5-----|
-------------------------------------------------------------------7-5-|
-----------------------------------------------------------------------|


Em7
-------15b---15b15b-15r-15-14-12-15-14-12/|
-----x------------------------------------|
-----x------------------------------------|
-----x------------------------------------|
--7---------------------------------------|
------------------------------------------|



--14-14-------------------------------------------|
--------15--12------------------------------------|
---------------14-12----11------------------------|
---------------------14----12-12------------------|
---------------------------------14-14-12-10-10/7-|
--------------------------------------------------|


Am7
--------------------------------------------12h15h12-------19-17-|
------------------------------------9/12h13----------13-12/------|
-------------------------------9-12------------------------------|
------------------------7/9h10-----------------------------------|
--12/-14-----------7-10------------------------------------------|
------------10/7-8-----------------------------------------------|


D
--20r-----19h20-17-20----20----20-------------|
----------------------17-------------19-------|
----------------------------17----17----------|
----------------------------------------------|
----------------------------------------17/---|
----------------------------------------------|


Em7
----------------------------------------------7-10-------9-12-|
--20r-----19h18h17-20/15-17/12-15/10-12/8---8---------10------|
------------------------------------------9--------11---------|
--------------------------------------------------------------|
--------------------------------------------------------------|
--------------------------------------------------------------|



-----------12-15----------14-17----15-18-------16-19-------17-20-------16-19----
--------12-------------15-------16----------17----------18----------17----------
-----12-------------16-------------------18----------19----------18----------19-
--14-------------14-------------------------------------------------------------
--------------------------------------------------------------------------------
--------------------------------------------------------------------------------


Dm7
--22b----------22b--20-20/19-19/17-17~--15h17h|
------------20--------------------------------|
---------21-----------------------------------|
----------------------------------------------|
----------------------------------------------|
----------------------------------------------|


G11
--19h15-15/10-10-------------13/17----17-|
-----------------------------------15----|
--------------------------14-------------|
---------------------9/15----------------|
-----------------------------------------|
-----------------------------------------|


C7
--17b----17r-15h17h15/12-15h12--------------------------------------|
-------------------------------13/5h6h5-----------------------------|
----------------------------------------7h5-5-7h5h4-----------------|
----------------------------------------------------7h3h5h7h5h3-----|
----------------------------------------------------------------7h3h|
--------------------------------------------------------------------|


F9#11
------------------------------------------------------|
------------------------------------------8h10-16h10--|
--------------------------7h10h16-10h8h10-------------|
----------------7h9h15-9------------------------------|
--2h--3/6h5h6/8---------------------------------------|
------------------------------------------------------|


F#m7
---------------------------------|
---10-12~-12--14--15--15b--------|
---------------------------------|
---------------------------------|
---------------------------------|
------------------------------0--|


B7sus4
---------------------------------------------------------------------------|
------12h0h14h0h14h0h15h0h15/22h0h22h0h22h0h22h20h0h19h0h19h0h19h17h0h17h0-|
---------------------------------------------------------------------------|
---------------------------------------------------------------------------|
---------------------------------------------------------------------------|
---------------------------------------------------------------------------|


Em7
--14r--12-14~---12h14h12----------------------------------|
----------------------17/12-------------------------------|
----------------------------11h12-14h7h9---------------2b-|
-----------------------------------------14h7h9-----------|
------------------------------------------------14h7/5----|
----------------------------------------------------------|



--------------------------|
-----------------0-15r--5-|
--2b-----0----------------|
--------------1-----------|
------------1-------------|
--------------------------|


Am7
--15h17h15h-19h15h17h15h19h15h17h15h19h15h17h15/12h15h12h15h12h14h12h15h12h17h12
--------------------------------------------------------------------------------
--------------------------------------------------------------------------------
--------------------------------------------------------------------------------
--------------------------------------------------------------------------------
--------------------------------------------------------------------------------


D
--10h12h10h14h10h12h10h14h10h12h10h14h10h12h10h14h10h12h10h14h10/7h10h7----7h10h
------------------------------------------------------------------------10------
--------------------------------------------------------------------------------
--------------------------------------------------------------------------------
--------------------------------------------------------------------------------
--------------------------------------------------------------------------------


Em7
--------3-----------3----------3-----------3-----------3h7h5h3h--------3h5h7h5h3
--3h5h7---7h5h3-5h7---7h5h3h7----7h5h3h5h7---7h5h3h5h7---------7h3h5h7----------
--------------------------------------------------------------------------------
--------------------------------------------------------------------------------
--------------------------------------------------------------------------------
--------------------------------------------------------------------------------


Em7
----3h5h7-10h7h5h3----------------------------------------|
--7----------------10h7-10h7h5h----------------19/22------|
-------------------------------7h5h7/-11/14/17------------|
-----------------------------------------------------0----|
----------------------------------------------------------|
----------------------------------------------------------|


Am7 D
--20b---20b-20b-20r-----20r-20b--|---20b21r--22b---22r--------|
----------------20r-----20r------|---20b21r--22b---22r--------|
---------------------------------|----------------------------|
---------------------------------|-------------------------14-|
---------------------------------|----------------------------|
---------------------------------|----------------------------|


Em7 D Em7
--15h19h15----15h19h15h19h15----15-19-15h19h15----15h19h15h19h15----15-19/15h12-
-----------19----------------19----------------19----------------19-------------
--------------------------------------------------------------------------------
--------------------------------------------------------------------------------
--------------------------------------------------------------------------------
--------------------------------------------------------------------------------


Em7 D Em7 D
--12----------------------------------------------------------------------------
------15h12h15h12----12----------12h14h12---------------------------------------
------------------15----15h14-15----------15-12-15h12-9h12h9h12/9-7-------------
--------------------------------------------------------------------9-7-5---5---
--------------------------------------------------------------------------7---7-
--------------------------------------------------------------------------------


Em7 D Em7 D
--7h10h7--------8h12h8-------10h14h10----------10/12h15h12----------14-17h14----
---------8h7/10--------10/10----------12h10-12-------------13-12-15----------15/
--------------------------------------------------------------------------------
--------------------------------------------------------------------------------
--------------------------------------------------------------------------------
--------------------------------------------------------------------------------


D Em7 D Em7
--15h12/---14h17h14/---15h19h15/17h20h17----19h22h19----19-22b----------|
--------15----------17-------------------21----------20-----------------|
------------------------------------------------------------------------|
------------------------------------------------------------------------|
------------------------------------------------------------------------|
------------------------------------------------------------------22/---|



---------------------10------|------------------|------------------|
----------8--10--12----------|------------------|------------------|
------9--------------7-------|------------------|------------------|
----------5--7---9-----------|------------------|------------------|
--12/-7-x--------------------|------------------|------------------|
-----------------------------|------------------|------------------|



------------------|------------------|------------------|------------------|
------------------|------------------|------------------|------------------|
------------------|------------------|------------------|------------------|
------------------|------------------|------------------|------------------|
------------------|------------------|------------------|------------------|
------------------|------------------|------------------|------------------|



----------|------------------|------------------|------------------|
----------|------------------|------------------|------------------|
----------|------------------|------------------|------------------|
----------|------------------|------------------|------------------|
----------|------------------|------------------|------------------|
----------|------------------|------------------|------------------|



------------------||
------------------||
------------------||
------------------||
------------------||
------------------||


Send questions and comments to cva6637259@hotmail.com

Or post on the MX message board in the guitar section. My username is "officaltabberman".

Thanks.