Stop Censorship
 
 

 
 1-9 a b c d e f g h i j k l m n o p q r s t u v w x y z
   Wild Cherry - Play That Funky Music White Boy Tab    

-------------------------------------------------------------------------------------
Play that Funky Music White Boy
-------------------------------------------------------------------------------------

Band: Wild Cherry
Song: Play that Funky Music
Tabbed by: Superman

Bass/Guitar Intro:
e:---------------
B:---------------
G:---------------
D:----2-0-2---0h2
A:---------0h2---
E:-0-0-----------

Rythm:
e:-77777-9-8-6
B:-77777-9-8-6
G:-77777-9-8-6
D:-66666-8-7-6
A:-77777-9-8-7
E:------------

Chorus:
e:-1010101010-12-11-10
B:-1010101010-12-11-10
G:-1010101010-12-11-10
D:-9-9-9-9-9--11-10-9-
A:-1010101010-12-11-10
E:--------------------

Riff
e:-------------------------
B:-------------------------
G:------9-7----------------
D:---8-8---9-7-9-9-7-5-----
A:--------------------7-5-7
E:-6-----------------------

This is an awesome song. This tab is 100% correct. Sit down listen to it and play along to get the rythm. I will be posting many more tabs later. Peace. Rock on!