Stop Censorship
 
 

 
 1-9 a b c d e f g h i j k l m n o p q r s t u v w x y z
   Wild Cherry - Play That Funky Music White Boy Tab    

i did it a couple times because it was too short

e:-------------------------
B:------------------------
G:--------------------0--
D:----2-0-2-------0 ----
A:------------0h2-------
E:-0-0-------------------

e:-------------------------
B:------------------------
G:--------------------0--
D:----2-0-2-------0 ----
A:------------0h2-------
E:-0-0-------------------

e:-------------------------
B:------------------------
G:--------------------0--
D:----2-0-2-------0 ----
A:------------0h2-------
E:-0-0-------------------

i tabbed this because the other three guys tabbed the bass part