Stop Censorship
 
 

 
 1-9 a b c d e f g h i j k l m n o p q r s t u v w x y z
   Wild Cherry - Play That Funky Music White Boy Full Tab    

Play that funky music white boy
Wild Cherry

STANDARD TUNNING

gtr. 1
e---------------------------------------------------------------------
b---------------------------------------------------------------------
g---------------------------------------------------------------------
d--------2--0--2-------0-2--------2--0--2-------0-2-------------------
a-----------------0H2----------------------0H2------------------------
e--0--0---------------------0--0--------------------------------------

gtr. 2
e--7---x-x-x-x-7-x-9--8-8---7-7-x-x-x-x-7-7/9-9-9-8-------------------
b--7---x-x-x-x-7-x-9--8-8---7-7-x-x-x-x-7-7/9-9-9-8-------------------
g--7---x-x-x-x-7-x-9--8-8---7-7-x-x-x-x-7-7/9-9-9-8-------------------
d---------------------------------------------------------------------
a---------------------------------------------------------------------
e---------------------------------------------------------------------

"and they were dancin` and
gtr. 1 singin` and movin` to the groovin`"
e---------------------------------------------------------------------
b---------------------------------------------------------------------
g---------------------------------------------------------------------
d--2--0--0H2----2--0--0H2----2--0--0H2----2--0--0H2-------------------
a---------------------------------------------------------------------
e---------------------------------------------------------------------

gtr. 2
e--7-7---7-7----7-7---7-7----7-7---7-7----7-7---7-7-------------------
b--7-7---7-7----7-7---7-7----7-7---7-7----7-7---7-7-------------------
g--7-7---7-7----7-7---7-7----7-7---7-7----7-7---7-7-------------------
d---------------------------------------------------------------------
a---------------------------------------------------------------------
e---------------------------------------------------------------------
FULL FULL FULL FULL
e-----------15B----15B---12----12-----------
b--15B----12----------------15-----15B------
g-------------------------------------------
d-------------------------------------------
a-------------------------------------------
e-------------------------------------------
FULL FULL FULL FULL 1/4 1/2 THEN FULL
e--12B---------------------------12-----12--------------
b--15B--15B---15--12--15B--15B------15B----15B----------
g-------------------------------------------------------
d-------------------------------------------------------
a-------------------------------------------------------
e-------------------------------------------------------
1/2 TO FULL FULL FULL
e--15-------------15------15------15--------
b-----15B------------15B-----15B------------
g-------------------------------------------
d-------------------------------------------
a-------------------------------------------
e-------------------------------------------
FULL 1/2 FULL FULL FULL
e--------------------------------------------------------------15B--12-H-15-12--
b--15B--15--12--------------------12B----------------15B--12--------------------
g--------------14B--14--12--------12B----12--12--12-----------------------------
d--------------------------14--14-----14----------------------------------------
a-------------------------------------------------------------------------------
e-------------------------------------------------------------------------------
1/2 1/2 1/2 FULL
e--17B----17B---15B------15--------------15---------15----------15-17B--15------
b---------------------17----17---15-H-17----15-H-17----15-H-17-------------17---
g-------------------------------------------------------------------------------
d-------------------------------------------------------------------------------
a-------------------------------------------------------------------------------
e-------------------------------------------------------------------------------

Then it`s the same main riffs but everything jumps up 3 frets.
Then it goes back down to normal.
Then it goes back up 3 frets.
At the end it goes up another 2 frets.

ANY QUESTIONS EMAIL ME AT motleymaniac03@yahoo.com