Stop Censorship
 
 

 
 1-9 a b c d e f g h i j k l m n o p q r s t u v w x y z
   Wild Cherry - Play That Funky Music Whte Boy Tab    

e|-------------------------|
B|-------------------------|
G|-------------------------|
D|-------------------------|
A|-------7--5--7-------5h7-|
E|-0--0-----------5h7------|

or

e|-------------------------|
B|-------------------------|
G|-------------------------|
D|---------------------0h2-|
A|-------7--5--7--0h2------|
E|-0--0--------------------|

or

e|-------------------------|
B|-------------------------|
G|-------------------------|
D|-------2--0--2-------0h2-|
A|----------------0h2------|
E|-0--0--------------------|

or

e|-------------------------|
B|-------------------------|
G|-------------------------|
D|-------2--0--2-----------|
A|---------------------5h7-|
E|-0--0-----------5h7------|

Thats most of the song and they all sound alike so enjoy