Stop Censorship
 
 

 
 1-9 a b c d e f g h i j k l m n o p q r s t u v w x y z
   Zabranjeno Pusenje - Mile Hasisar Tab    

Zabranjeno Pusenje / Mile hasisar:

Tabbed by Boris Zivkovic


Uvod i pratnja : x 4
e----------------------------------------------
H----------------------------------------------
G----------------------------------------------
D----------------------------------------------
A--7----------3-----------7---------3---3-3-5-3
E--5---0-3-5----5-3-3-5---5---0-3-5---5--------

A
Dok je ponocna se***aeska za Kosevo vozila
D
Usred nocnih ptica same pjane i jalija
E D E D
Poslije mnogo vremena sretosmo se mi
E D A
Ja i moj drug Mile hasisar

Nekad smo ispred Skenderije mrzili starce,
lovu i materijalni svijet
Nekad smo artane rokali, krkali "pis" i isli na Mljet
Prica mi da je Morrison ziv, u nekom selu u Andima
I da vise nema dobre `zike zbog pojave ruznih pankera

Ref.
D
Roll Mile roll, roll Mile roll,
E D
roll Mile roll, Mile roooooooll
A
All night long

Mile prica da je puno putov`o
S kesama po parku dernek pravio
Od Lane plocu "***a" dobio na dar
Cim je peci na pojacalu popravio kvar,
moj drug Mile hasisar

Ref.

E
Na zadnjoj stanici se rastajemo,
D A
Mile k`o fol zuri, maznuo me "speed"
E D A
Amajlije mu zveckaju, jer nosi sal od svile
E D A
Korake mu ne cujes, jer nosaju ga vile
E D A
Stigoh samo da viknem za njim, kotrljaj se Mile

Ref.
Has, has Has, has Has, has Has,has

Ref. x 2


***VERZIJA 2***

A riff

e|----------------|----------------|----------------
H|---5------------|------5---------|----------------
G|---6-------5----|------6-------5-|---5h7p5--------
D|---7-7-7-7---7--|-5----7-7-7-7---|-7--------------
A|---7------------|----7-7---------|----------------
E|---5------------|------5---------|----------------


A riff
Dok je ponocna 17-ka za Kosevo vozila
usred nocnih ptica same pijane i jalija
E D E D
poslije mnogo vremena sretosmo se mi
E D A riff
ja i moj drug Mile Hasisar

............

D A
Roll Mile Roll
Roll Mile Roll
Roll Mile Roll
A E D A riff
Mile Roll all night long