Stop Censorship
 
 

 
 1-9 a b c d e f g h i j k l m n o p q r s t u v w x y z
   Zabranjeno Pusenje - Mozes Imat Moje Tijelo Tab    

Zabranjeno Pusenje / Mozes imat moje tijelo:

Tabbed by Boris Zivkovic (walkaway)

Ovo je "gruba" aproksimacija glavnog riffa iz pjesme "Moszes imat moje tijelo..."
Kad budete svirali uz pjesmu shavtit cete bit,jer sam ja ovo pisao iz glave pa
sam vjerojatno negdje izostavio a negdje dodao par taktova nekog akorda viska..

C F G F
e|--0----------------0-----1--------|-------0-------------------------
H|--1h3p1h3p1h3p1h3p1--3-1-1h3p1----|-----1---3-1---3p1h3p1-1h3p1h3p1-
G|--0-0-0-0-0-0-0-0-0----0-2-2-2[par puta]2-----2-----------2-2-2-2-2
D|--2-2-2-2-2-2-2-2-2------3-3-3---|------3---------0-0-0-0-3-3-3-3-3
A|--3------------------------------|----------------2-2-2-2----------
E|---------------------------------|----------------3-3-3-3----------

G F
e|----------------|----------------|----------------|----------------
H|--3--------1---|----------------|----------------|----------------
G|----[isto]-2----|----------------|----------------|----------------
D|--0--------3----|----------------|----------------|----------------
A|--2-------------|----------------|----------------|----------------
E|--3-------------|----------------|----------------|----------------

Refren: C G F G




Mozes imat moje tijelo al` dusu ne



Gdje sam rodjen tu je sve sirotinja
vuk je kod nas domaca zivotinja
skrta zemlja nikoga ne hrani
da prezivis moras radit vani


Sljakao sam ja u tudjoj zemlji
sanjao sam o voljenoj zeni
sa arbeita kad bih dosa doma
gledao bi kako raste ona

Mislio sam srecu kupit novcem
sredio sam stvar sa njenim ocem
prenesoh je preko kucnog praga
mislio sam da bice moja draga


Rekla mi je prvo vece rekla mi je sve
Mozes imat moje tijelo ali dusu ne


Samo tijelo nista mi ne znaci
Kraj Banhoffa takve mogu naci
Zelio sam da me stvarno voli
da joj ljubav nije aerobik

Kad je sa mnom da ne skriva pogled
da ne gleda uvijek negdje pored
zagrljeni kada zora svice
da budemo kao jedno bice

Rekla mi je prvo vece rekla mi je sve
Mozes imat moje tijelo ali dusu ne

Nije mogla dugo da zanese
u nas nije bilo graje djece
sporo su nam prolazili dani
za veceru kad bi sjeli sami

Razboli se Bog je mladu uze
pamtim vjecno njene zadnje suze
i saptaje :"ti si covjek vrijedan,
ali zivot,zivot on je bijedan"

Rekla mi je prvo vece rekla mi je sve
Mozes imat moje tijelo ali dusu ne